ISO-10303-21;
HEADER;
FILE_DESCRIPTION((''),'2;1');
FILE_NAME('266-101-10-00','2012-11-27T',('cad01'),(''),
'PRO/ENGINEER BY PARAMETRIC TECHNOLOGY CORPORATION, 2005110',
'PRO/ENGINEER BY PARAMETRIC TECHNOLOGY CORPORATION, 2005110','');
FILE_SCHEMA(('CONFIG_CONTROL_DESIGN'));
ENDSEC;
DATA;
#1=DIRECTION('',(1.E0,0.E0,0.E0));
#2=VECTOR('',#1,2.E0);
#3=CARTESIAN_POINT('',(6.707277889096E1,6.980451395797E1,2.799803473334E0));
#4=LINE('',#3,#2);
#5=DIRECTION('',(0.E0,0.E0,-1.E0));
#6=VECTOR('',#5,1.8E0);
#7=CARTESIAN_POINT('',(6.707277889096E1,6.980451395797E1,4.599803473334E0));
#8=LINE('',#7,#6);
#9=DIRECTION('',(-1.E0,0.E0,0.E0));
#10=VECTOR('',#9,2.E0);
#11=CARTESIAN_POINT('',(6.907277889096E1,6.980451395797E1,4.599803473334E0));
#12=LINE('',#11,#10);
#13=DIRECTION('',(0.E0,0.E0,1.E0));
#14=VECTOR('',#13,1.8E0);
#15=CARTESIAN_POINT('',(6.907277889096E1,6.980451395797E1,2.799803473334E0));
#16=LINE('',#15,#14);
#17=DIRECTION('',(0.E0,1.E0,0.E0));
#18=VECTOR('',#17,1.250005697103E0);
#19=CARTESIAN_POINT('',(6.682277889096E1,6.880450826086E1,2.799803473334E0));
#20=LINE('',#19,#18);
#21=DIRECTION('',(0.E0,-1.E0,0.E0));
#22=VECTOR('',#21,1.250005697103E0);
#23=CARTESIAN_POINT('',(6.932277889096E1,7.005451395797E1,2.799803473334E0));
#24=LINE('',#23,#22);
#25=DIRECTION('',(0.E0,-1.E0,0.E0));
#26=VECTOR('',#25,7.5E-1);
#27=CARTESIAN_POINT('',(6.907277889096E1,6.980451395797E1,2.799803473334E0));
#28=LINE('',#27,#26);
#29=DIRECTION('',(0.E0,1.E0,0.E0));
#30=VECTOR('',#29,7.5E-1);
#31=CARTESIAN_POINT('',(6.907277889096E1,6.905451395797E1,4.599803473334E0));
#32=LINE('',#31,#30);
#33=DIRECTION('',(0.E0,1.E0,0.E0));
#34=VECTOR('',#33,7.5E-1);
#35=CARTESIAN_POINT('',(6.707277889096E1,6.905451395797E1,2.799803473334E0));
#36=LINE('',#35,#34);
#37=DIRECTION('',(0.E0,0.E0,-1.E0));
#38=VECTOR('',#37,1.8E0);
#39=CARTESIAN_POINT('',(6.707277889096E1,6.905451395797E1,4.599803473334E0));
#40=LINE('',#39,#38);
#41=DIRECTION('',(0.E0,-1.E0,0.E0));
#42=VECTOR('',#41,7.5E-1);
#43=CARTESIAN_POINT('',(6.707277889096E1,6.980451395797E1,4.599803473334E0));
#44=LINE('',#43,#42);
#45=DIRECTION('',(-1.E0,0.E0,0.E0));
#46=VECTOR('',#45,2.E0);
#47=CARTESIAN_POINT('',(6.907277889096E1,6.905451395797E1,2.799803473334E0));
#48=LINE('',#47,#46);
#49=DIRECTION('',(0.E0,0.E0,-1.E0));
#50=VECTOR('',#49,1.8E0);
#51=CARTESIAN_POINT('',(6.907277889096E1,6.905451395797E1,4.599803473334E0));
#52=LINE('',#51,#50);
#53=DIRECTION('',(1.E0,0.E0,0.E0));
#54=VECTOR('',#53,2.E0);
#55=CARTESIAN_POINT('',(6.707277889096E1,6.905451395797E1,4.599803473334E0));
#56=LINE('',#55,#54);
#57=DIRECTION('',(0.E0,0.E0,1.E0));
#58=VECTOR('',#57,2.100009571133E0);
#59=CARTESIAN_POINT('',(6.682277889096E1,7.005451395797E1,2.799803473334E0));
#60=LINE('',#59,#58);
#61=DIRECTION('',(-1.E0,0.E0,0.E0));
#62=VECTOR('',#61,2.5E0);
#63=CARTESIAN_POINT('',(6.932277889096E1,7.005451395797E1,2.799803473334E0));
#64=LINE('',#63,#62);
#65=DIRECTION('',(0.E0,0.E0,-1.E0));
#66=VECTOR('',#65,2.100009571133E0);
#67=CARTESIAN_POINT('',(6.932277889096E1,7.005451395797E1,4.899813044467E0));
#68=LINE('',#67,#66);
#69=DIRECTION('',(1.E0,0.E0,0.E0));
#70=VECTOR('',#69,2.5E0);
#71=CARTESIAN_POINT('',(6.682277889096E1,7.005451395797E1,4.899813044467E0));
#72=LINE('',#71,#70);
#73=DIRECTION('',(0.E0,0.E0,-1.E0));
#74=VECTOR('',#73,2.100009571133E0);
#75=CARTESIAN_POINT('',(6.682277889096E1,6.880450826086E1,4.899813044467E0));
#76=LINE('',#75,#74);
#77=DIRECTION('',(0.E0,0.E0,1.E0));
#78=VECTOR('',#77,2.100009571133E0);
#79=CARTESIAN_POINT('',(6.932277889096E1,6.880450826086E1,2.799803473334E0));
#80=LINE('',#79,#78);
#81=DIRECTION('',(1.E0,0.E0,0.E0));
#82=VECTOR('',#81,2.5E0);
#83=CARTESIAN_POINT('',(6.682277889096E1,6.880450826086E1,2.799803473334E0));
#84=LINE('',#83,#82);
#85=DIRECTION('',(0.E0,-1.E0,0.E0));
#86=VECTOR('',#85,1.250005697103E0);
#87=CARTESIAN_POINT('',(6.682277889096E1,7.005451395797E1,4.899813044467E0));
#88=LINE('',#87,#86);
#89=DIRECTION('',(0.E0,1.E0,0.E0));
#90=VECTOR('',#89,1.250005697103E0);
#91=CARTESIAN_POINT('',(6.932277889096E1,6.880450826086E1,4.899813044467E0));
#92=LINE('',#91,#90);
#93=DIRECTION('',(1.E0,0.E0,0.E0));
#94=VECTOR('',#93,2.5E0);
#95=CARTESIAN_POINT('',(6.682277889096E1,6.880450826086E1,4.899813044467E0));
#96=LINE('',#95,#94);
#97=DIRECTION('',(0.E0,0.E0,-1.E0));
#98=VECTOR('',#97,5.000022788410E-1);
#99=CARTESIAN_POINT('',(6.687277889096E1,6.885450848875E1,5.399815323308E0));
#100=LINE('',#99,#98);
#101=DIRECTION('',(0.E0,0.E0,1.E0));
#102=VECTOR('',#101,5.000022788410E-1);
#103=CARTESIAN_POINT('',(6.927277889096E1,6.885450848875E1,4.899813044467E0));
#104=LINE('',#103,#102);
#105=DIRECTION('',(1.E0,0.E0,0.E0));
#106=VECTOR('',#105,2.4E0);
#107=CARTESIAN_POINT('',(6.687277889096E1,6.885450848875E1,4.899813044467E0));
#108=LINE('',#107,#106);
#109=DIRECTION('',(0.E0,-1.E0,0.E0));
#110=VECTOR('',#109,1.150005241334E0);
#111=CARTESIAN_POINT('',(6.687277889096E1,7.000451373008E1,4.899813044467E0));
#112=LINE('',#111,#110);
#113=DIRECTION('',(0.E0,0.E0,1.E0));
#114=VECTOR('',#113,5.000022788410E-1);
#115=CARTESIAN_POINT('',(6.687277889096E1,7.000451373008E1,4.899813044467E0));
#116=LINE('',#115,#114);
#117=DIRECTION('',(-1.E0,0.E0,0.E0));
#118=VECTOR('',#117,2.4E0);
#119=CARTESIAN_POINT('',(6.927277889096E1,7.000451373008E1,4.899813044467E0));
#120=LINE('',#119,#118);
#121=DIRECTION('',(0.E0,0.E0,-1.E0));
#122=VECTOR('',#121,5.000022788410E-1);
#123=CARTESIAN_POINT('',(6.927277889096E1,7.000451373008E1,5.399815323308E0));
#124=LINE('',#123,#122);
#125=DIRECTION('',(0.E0,1.E0,0.E0));
#126=VECTOR('',#125,1.150005241334E0);
#127=CARTESIAN_POINT('',(6.927277889096E1,6.885450848875E1,4.899813044467E0));
#128=LINE('',#127,#126);
#129=DIRECTION('',(0.E0,1.E0,0.E0));
#130=VECTOR('',#129,1.250005697103E0);
#131=CARTESIAN_POINT('',(6.682277889096E1,6.880450826086E1,5.399815323308E0));
#132=LINE('',#131,#130);
#133=DIRECTION('',(-1.E0,0.E0,0.E0));
#134=VECTOR('',#133,2.5E0);
#135=CARTESIAN_POINT('',(6.932277889096E1,6.880450826086E1,5.399815323308E0));
#136=LINE('',#135,#134);
#137=DIRECTION('',(0.E0,-1.E0,0.E0));
#138=VECTOR('',#137,1.250005697103E0);
#139=CARTESIAN_POINT('',(6.932277889096E1,7.005451395797E1,5.399815323308E0));
#140=LINE('',#139,#138);
#141=DIRECTION('',(1.E0,0.E0,0.E0));
#142=VECTOR('',#141,2.5E0);
#143=CARTESIAN_POINT('',(6.682277889096E1,7.005451395797E1,5.399815323308E0));
#144=LINE('',#143,#142);
#145=DIRECTION('',(1.E0,0.E0,0.E0));
#146=VECTOR('',#145,2.4E0);
#147=CARTESIAN_POINT('',(6.687277889096E1,6.885450848875E1,5.399815323308E0));
#148=LINE('',#147,#146);
#149=DIRECTION('',(0.E0,-1.E0,0.E0));
#150=VECTOR('',#149,1.150005241334E0);
#151=CARTESIAN_POINT('',(6.687277889096E1,7.000451373008E1,5.399815323308E0));
#152=LINE('',#151,#150);
#153=DIRECTION('',(-1.E0,0.E0,0.E0));
#154=VECTOR('',#153,2.4E0);
#155=CARTESIAN_POINT('',(6.927277889096E1,7.000451373008E1,5.399815323308E0));
#156=LINE('',#155,#154);
#157=DIRECTION('',(0.E0,1.E0,0.E0));
#158=VECTOR('',#157,1.150005241334E0);
#159=CARTESIAN_POINT('',(6.927277889096E1,6.885450848875E1,5.399815323308E0));
#160=LINE('',#159,#158);
#161=DIRECTION('',(0.E0,0.E0,1.E0));
#162=VECTOR('',#161,4.000018230728E-1);
#163=CARTESIAN_POINT('',(6.682277889096E1,7.005451395797E1,5.399815323308E0));
#164=LINE('',#163,#162);
#165=DIRECTION('',(0.E0,0.E0,-1.E0));
#166=VECTOR('',#165,4.000018230728E-1);
#167=CARTESIAN_POINT('',(6.932277889096E1,7.005451395797E1,5.799817146381E0));
#168=LINE('',#167,#166);
#169=DIRECTION('',(1.E0,0.E0,0.E0));
#170=VECTOR('',#169,2.5E0);
#171=CARTESIAN_POINT('',(6.682277889096E1,7.005451395797E1,5.799817146381E0));
#172=LINE('',#171,#170);
#173=DIRECTION('',(0.E0,0.E0,-1.E0));
#174=VECTOR('',#173,4.000018230728E-1);
#175=CARTESIAN_POINT('',(6.682277889096E1,6.880450826086E1,5.799817146381E0));
#176=LINE('',#175,#174);
#177=DIRECTION('',(0.E0,0.E0,1.E0));
#178=VECTOR('',#177,4.000018230728E-1);
#179=CARTESIAN_POINT('',(6.932277889096E1,6.880450826086E1,5.399815323308E0));
#180=LINE('',#179,#178);
#181=DIRECTION('',(0.E0,-1.E0,0.E0));
#182=VECTOR('',#181,1.250005697103E0);
#183=CARTESIAN_POINT('',(6.682277889096E1,7.005451395797E1,5.799817146381E0));
#184=LINE('',#183,#182);
#185=DIRECTION('',(0.E0,1.E0,0.E0));
#186=VECTOR('',#185,1.250005697103E0);
#187=CARTESIAN_POINT('',(6.932277889096E1,6.880450826086E1,5.799817146381E0));
#188=LINE('',#187,#186);
#189=DIRECTION('',(1.E0,0.E0,0.E0));
#190=VECTOR('',#189,2.5E0);
#191=CARTESIAN_POINT('',(6.682277889096E1,6.880450826086E1,5.799817146381E0));
#192=LINE('',#191,#190);
#193=CARTESIAN_POINT('',(6.707277889096E1,6.980451395797E1,2.799803473334E0));
#194=CARTESIAN_POINT('',(6.907277889096E1,6.980451395797E1,2.799803473334E0));
#195=VERTEX_POINT('',#193);
#196=VERTEX_POINT('',#194);
#197=CARTESIAN_POINT('',(6.707277889096E1,6.905451395797E1,2.799803473334E0));
#198=VERTEX_POINT('',#197);
#199=CARTESIAN_POINT('',(6.907277889096E1,6.980451395797E1,4.599803473334E0));
#200=VERTEX_POINT('',#199);
#201=CARTESIAN_POINT('',(6.707277889096E1,6.980451395797E1,4.599803473334E0));
#202=VERTEX_POINT('',#201);
#203=CARTESIAN_POINT('',(6.907277889096E1,6.905451395797E1,2.799803473334E0));
#204=VERTEX_POINT('',#203);
#205=CARTESIAN_POINT('',(6.707277889096E1,6.905451395797E1,4.599803473334E0));
#206=VERTEX_POINT('',#205);
#207=CARTESIAN_POINT('',(6.907277889096E1,6.905451395797E1,4.599803473334E0));
#208=VERTEX_POINT('',#207);
#209=CARTESIAN_POINT('',(6.682277889096E1,6.880450826086E1,2.799803473334E0));
#210=CARTESIAN_POINT('',(6.682277889096E1,7.005451395797E1,2.799803473334E0));
#211=VERTEX_POINT('',#209);
#212=VERTEX_POINT('',#210);
#213=CARTESIAN_POINT('',(6.682277889096E1,6.880450826086E1,5.399815323308E0));
#214=CARTESIAN_POINT('',(6.682277889096E1,7.005451395797E1,5.399815323308E0));
#215=VERTEX_POINT('',#213);
#216=VERTEX_POINT('',#214);
#217=CARTESIAN_POINT('',(6.932277889096E1,7.005451395797E1,2.799803473334E0));
#218=VERTEX_POINT('',#217);
#219=CARTESIAN_POINT('',(6.932277889096E1,6.880450826086E1,2.799803473334E0));
#220=VERTEX_POINT('',#219);
#221=CARTESIAN_POINT('',(6.682277889096E1,7.005451395797E1,5.799817146381E0));
#222=VERTEX_POINT('',#221);
#223=CARTESIAN_POINT('',(6.687277889096E1,6.885450848875E1,5.399815323308E0));
#224=CARTESIAN_POINT('',(6.927277889096E1,6.885450848875E1,5.399815323308E0));
#225=VERTEX_POINT('',#223);
#226=VERTEX_POINT('',#224);
#227=CARTESIAN_POINT('',(6.932277889096E1,7.005451395797E1,5.399815323308E0));
#228=VERTEX_POINT('',#227);
#229=CARTESIAN_POINT('',(6.932277889096E1,6.880450826086E1,5.399815323308E0));
#230=VERTEX_POINT('',#229);
#231=CARTESIAN_POINT('',(6.682277889096E1,6.880450826086E1,4.899813044467E0));
#232=VERTEX_POINT('',#231);
#233=CARTESIAN_POINT('',(6.682277889096E1,7.005451395797E1,4.899813044467E0));
#234=VERTEX_POINT('',#233);
#235=CARTESIAN_POINT('',(6.682277889096E1,6.880450826086E1,5.799817146381E0));
#236=VERTEX_POINT('',#235);
#237=CARTESIAN_POINT('',(6.932277889096E1,7.005451395797E1,5.799817146381E0));
#238=VERTEX_POINT('',#237);
#239=CARTESIAN_POINT('',(6.927277889096E1,7.000451373008E1,5.399815323308E0));
#240=VERTEX_POINT('',#239);
#241=CARTESIAN_POINT('',(6.687277889096E1,7.000451373008E1,5.399815323308E0));
#242=VERTEX_POINT('',#241);
#243=CARTESIAN_POINT('',(6.932277889096E1,7.005451395797E1,4.899813044467E0));
#244=VERTEX_POINT('',#243);
#245=CARTESIAN_POINT('',(6.932277889096E1,6.880450826086E1,4.899813044467E0));
#246=VERTEX_POINT('',#245);
#247=CARTESIAN_POINT('',(6.932277889096E1,6.880450826086E1,5.799817146381E0));
#248=VERTEX_POINT('',#247);
#249=CARTESIAN_POINT('',(6.687277889096E1,6.885450848875E1,4.899813044467E0));
#250=VERTEX_POINT('',#249);
#251=CARTESIAN_POINT('',(6.927277889096E1,6.885450848875E1,4.899813044467E0));
#252=VERTEX_POINT('',#251);
#253=CARTESIAN_POINT('',(6.927277889096E1,7.000451373008E1,4.899813044467E0));
#254=VERTEX_POINT('',#253);
#255=CARTESIAN_POINT('',(6.687277889096E1,7.000451373008E1,4.899813044467E0));
#256=VERTEX_POINT('',#255);
#257=CARTESIAN_POINT('',(6.907277889096E1,6.980451395797E1,4.599803473334E0));
#258=DIRECTION('',(0.E0,1.E0,0.E0));
#259=DIRECTION('',(-1.E0,0.E0,0.E0));
#260=AXIS2_PLACEMENT_3D('',#257,#258,#259);
#261=PLANE('',#260);
#263=ORIENTED_EDGE('',*,*,#262,.F.);
#265=ORIENTED_EDGE('',*,*,#264,.F.);
#267=ORIENTED_EDGE('',*,*,#266,.F.);
#269=ORIENTED_EDGE('',*,*,#268,.F.);
#270=EDGE_LOOP('',(#263,#265,#267,#269));
#271=FACE_OUTER_BOUND('',#270,.F.);
#272=ADVANCED_FACE('',(#271),#261,.F.);
#273=CARTESIAN_POINT('',(6.932277889096E1,6.880450826086E1,2.799803473334E0));
#274=DIRECTION('',(0.E0,0.E0,-1.E0));
#275=DIRECTION('',(1.E0,0.E0,0.E0));
#276=AXIS2_PLACEMENT_3D('',#273,#274,#275);
#277=PLANE('',#276);
#279=ORIENTED_EDGE('',*,*,#278,.F.);
#281=ORIENTED_EDGE('',*,*,#280,.T.);
#283=ORIENTED_EDGE('',*,*,#282,.F.);
#285=ORIENTED_EDGE('',*,*,#284,.T.);
#286=EDGE_LOOP('',(#279,#281,#283,#285));
#287=FACE_OUTER_BOUND('',#286,.F.);
#288=ORIENTED_EDGE('',*,*,#262,.T.);
#290=ORIENTED_EDGE('',*,*,#289,.T.);
#292=ORIENTED_EDGE('',*,*,#291,.T.);
#294=ORIENTED_EDGE('',*,*,#293,.T.);
#295=EDGE_LOOP('',(#288,#290,#292,#294));
#296=FACE_BOUND('',#295,.F.);
#297=ADVANCED_FACE('',(#287,#296),#277,.T.);
#298=CARTESIAN_POINT('',(6.907277889096E1,6.905451395797E1,4.599803473334E0));
#299=DIRECTION('',(1.E0,0.E0,0.E0));
#300=DIRECTION('',(0.E0,1.E0,0.E0));
#301=AXIS2_PLACEMENT_3D('',#298,#299,#300);
#302=PLANE('',#301);
#303=ORIENTED_EDGE('',*,*,#289,.F.);
#304=ORIENTED_EDGE('',*,*,#268,.T.);
#306=ORIENTED_EDGE('',*,*,#305,.F.);
#308=ORIENTED_EDGE('',*,*,#307,.T.);
#309=EDGE_LOOP('',(#303,#304,#306,#308));
#310=FACE_OUTER_BOUND('',#309,.F.);
#311=ADVANCED_FACE('',(#310),#302,.F.);
#312=CARTESIAN_POINT('',(6.807277889096E1,6.942951395797E1,4.599803473334E0));
#313=DIRECTION('',(0.E0,0.E0,1.E0));
#314=DIRECTION('',(-1.E0,0.E0,0.E0));
#315=AXIS2_PLACEMENT_3D('',#312,#313,#314);
#316=PLANE('',#315);
#317=ORIENTED_EDGE('',*,*,#305,.T.);
#318=ORIENTED_EDGE('',*,*,#266,.T.);
#320=ORIENTED_EDGE('',*,*,#319,.T.);
#322=ORIENTED_EDGE('',*,*,#321,.T.);
#323=EDGE_LOOP('',(#317,#318,#320,#322));
#324=FACE_OUTER_BOUND('',#323,.F.);
#325=ADVANCED_FACE('',(#324),#316,.F.);
#326=CARTESIAN_POINT('',(6.707277889096E1,6.980451395797E1,4.599803473334E0));
#327=DIRECTION('',(-1.E0,0.E0,0.E0));
#328=DIRECTION('',(0.E0,-1.E0,0.E0));
#329=AXIS2_PLACEMENT_3D('',#326,#327,#328);
#330=PLANE('',#329);
#331=ORIENTED_EDGE('',*,*,#293,.F.);
#333=ORIENTED_EDGE('',*,*,#332,.F.);
#334=ORIENTED_EDGE('',*,*,#319,.F.);
#335=ORIENTED_EDGE('',*,*,#264,.T.);
#336=EDGE_LOOP('',(#331,#333,#334,#335));
#337=FACE_OUTER_BOUND('',#336,.F.);
#338=ADVANCED_FACE('',(#337),#330,.F.);
#339=CARTESIAN_POINT('',(6.707277889096E1,6.905451395797E1,4.599803473334E0));
#340=DIRECTION('',(0.E0,-1.E0,0.E0));
#341=DIRECTION('',(1.E0,0.E0,0.E0));
#342=AXIS2_PLACEMENT_3D('',#339,#340,#341);
#343=PLANE('',#342);
#344=ORIENTED_EDGE('',*,*,#291,.F.);
#345=ORIENTED_EDGE('',*,*,#307,.F.);
#346=ORIENTED_EDGE('',*,*,#321,.F.);
#347=ORIENTED_EDGE('',*,*,#332,.T.);
#348=EDGE_LOOP('',(#344,#345,#346,#347));
#349=FACE_OUTER_BOUND('',#348,.F.);
#350=ADVANCED_FACE('',(#349),#343,.F.);
#351=CARTESIAN_POINT('',(6.682277889096E1,6.942951110941E1,3.849808258901E0));
#352=DIRECTION('',(-1.E0,0.E0,0.E0));
#353=DIRECTION('',(0.E0,-1.E0,0.E0));
#354=AXIS2_PLACEMENT_3D('',#351,#352,#353);
#355=PLANE('',#354);
#357=ORIENTED_EDGE('',*,*,#356,.T.);
#359=ORIENTED_EDGE('',*,*,#358,.T.);
#361=ORIENTED_EDGE('',*,*,#360,.T.);
#362=ORIENTED_EDGE('',*,*,#278,.T.);
#363=EDGE_LOOP('',(#357,#359,#361,#362));
#364=FACE_OUTER_BOUND('',#363,.F.);
#365=ADVANCED_FACE('',(#364),#355,.T.);
#366=CARTESIAN_POINT('',(6.932277889096E1,7.005451395797E1,2.799803473334E0));
#367=DIRECTION('',(0.E0,1.E0,0.E0));
#368=DIRECTION('',(-1.E0,0.E0,0.E0));
#369=AXIS2_PLACEMENT_3D('',#366,#367,#368);
#370=PLANE('',#369);
#371=ORIENTED_EDGE('',*,*,#356,.F.);
#372=ORIENTED_EDGE('',*,*,#284,.F.);
#374=ORIENTED_EDGE('',*,*,#373,.F.);
#376=ORIENTED_EDGE('',*,*,#375,.F.);
#377=EDGE_LOOP('',(#371,#372,#374,#376));
#378=FACE_OUTER_BOUND('',#377,.F.);
#379=ADVANCED_FACE('',(#378),#370,.T.);
#380=CARTESIAN_POINT('',(6.932277889096E1,6.942951110941E1,3.849808258901E0));
#381=DIRECTION('',(-1.E0,0.E0,0.E0));
#382=DIRECTION('',(0.E0,-1.E0,0.E0));
#383=AXIS2_PLACEMENT_3D('',#380,#381,#382);
#384=PLANE('',#383);
#385=ORIENTED_EDGE('',*,*,#282,.T.);
#387=ORIENTED_EDGE('',*,*,#386,.T.);
#389=ORIENTED_EDGE('',*,*,#388,.T.);
#390=ORIENTED_EDGE('',*,*,#373,.T.);
#391=EDGE_LOOP('',(#385,#387,#389,#390));
#392=FACE_OUTER_BOUND('',#391,.F.);
#393=ADVANCED_FACE('',(#392),#384,.F.);
#394=CARTESIAN_POINT('',(6.932277889096E1,6.880450826086E1,4.899813044467E0));
#395=DIRECTION('',(0.E0,-1.E0,0.E0));
#396=DIRECTION('',(1.E0,0.E0,0.E0));
#397=AXIS2_PLACEMENT_3D('',#394,#395,#396);
#398=PLANE('',#397);
#399=ORIENTED_EDGE('',*,*,#360,.F.);
#401=ORIENTED_EDGE('',*,*,#400,.T.);
#402=ORIENTED_EDGE('',*,*,#386,.F.);
#403=ORIENTED_EDGE('',*,*,#280,.F.);
#404=EDGE_LOOP('',(#399,#401,#402,#403));
#405=FACE_OUTER_BOUND('',#404,.F.);
#406=ADVANCED_FACE('',(#405),#398,.T.);
#407=CARTESIAN_POINT('',(6.932277889096E1,7.005451395797E1,4.899813044467E0));
#408=DIRECTION('',(0.E0,0.E0,1.E0));
#409=DIRECTION('',(-1.E0,0.E0,0.E0));
#410=AXIS2_PLACEMENT_3D('',#407,#408,#409);
#411=PLANE('',#410);
#412=ORIENTED_EDGE('',*,*,#358,.F.);
#413=ORIENTED_EDGE('',*,*,#375,.T.);
#414=ORIENTED_EDGE('',*,*,#388,.F.);
#415=ORIENTED_EDGE('',*,*,#400,.F.);
#416=EDGE_LOOP('',(#412,#413,#414,#415));
#417=FACE_OUTER_BOUND('',#416,.F.);
#419=ORIENTED_EDGE('',*,*,#418,.T.);
#421=ORIENTED_EDGE('',*,*,#420,.T.);
#423=ORIENTED_EDGE('',*,*,#422,.T.);
#425=ORIENTED_EDGE('',*,*,#424,.T.);
#426=EDGE_LOOP('',(#419,#421,#423,#425));
#427=FACE_BOUND('',#426,.F.);
#428=ADVANCED_FACE('',(#417,#427),#411,.T.);
#429=CARTESIAN_POINT('',(6.927277889096E1,6.885450848875E1,5.399815323308E0));
#430=DIRECTION('',(0.E0,-1.E0,0.E0));
#431=DIRECTION('',(1.E0,0.E0,0.E0));
#432=AXIS2_PLACEMENT_3D('',#429,#430,#431);
#433=PLANE('',#432);
#435=ORIENTED_EDGE('',*,*,#434,.F.);
#437=ORIENTED_EDGE('',*,*,#436,.T.);
#439=ORIENTED_EDGE('',*,*,#438,.F.);
#440=ORIENTED_EDGE('',*,*,#418,.F.);
#441=EDGE_LOOP('',(#435,#437,#439,#440));
#442=FACE_OUTER_BOUND('',#441,.F.);
#443=ADVANCED_FACE('',(#442),#433,.T.);
#444=CARTESIAN_POINT('',(6.687277889096E1,6.942951110941E1,5.149814183888E0));
#445=DIRECTION('',(-1.E0,0.E0,0.E0));
#446=DIRECTION('',(0.E0,-1.E0,0.E0));
#447=AXIS2_PLACEMENT_3D('',#444,#445,#446);
#448=PLANE('',#447);
#450=ORIENTED_EDGE('',*,*,#449,.T.);
#452=ORIENTED_EDGE('',*,*,#451,.T.);
#453=ORIENTED_EDGE('',*,*,#434,.T.);
#454=ORIENTED_EDGE('',*,*,#424,.F.);
#455=EDGE_LOOP('',(#450,#452,#453,#454));
#456=FACE_OUTER_BOUND('',#455,.F.);
#457=ADVANCED_FACE('',(#456),#448,.T.);
#458=CARTESIAN_POINT('',(6.927277889096E1,7.000451373008E1,4.899813044467E0));
#459=DIRECTION('',(0.E0,1.E0,0.E0));
#460=DIRECTION('',(-1.E0,0.E0,0.E0));
#461=AXIS2_PLACEMENT_3D('',#458,#459,#460);
#462=PLANE('',#461);
#463=ORIENTED_EDGE('',*,*,#449,.F.);
#464=ORIENTED_EDGE('',*,*,#422,.F.);
#466=ORIENTED_EDGE('',*,*,#465,.F.);
#468=ORIENTED_EDGE('',*,*,#467,.T.);
#469=EDGE_LOOP('',(#463,#464,#466,#468));
#470=FACE_OUTER_BOUND('',#469,.F.);
#471=ADVANCED_FACE('',(#470),#462,.T.);
#472=CARTESIAN_POINT('',(6.927277889096E1,6.942951110941E1,5.149814183888E0));
#473=DIRECTION('',(-1.E0,0.E0,0.E0));
#474=DIRECTION('',(0.E0,-1.E0,0.E0));
#475=AXIS2_PLACEMENT_3D('',#472,#473,#474);
#476=PLANE('',#475);
#477=ORIENTED_EDGE('',*,*,#420,.F.);
#478=ORIENTED_EDGE('',*,*,#438,.T.);
#480=ORIENTED_EDGE('',*,*,#479,.T.);
#481=ORIENTED_EDGE('',*,*,#465,.T.);
#482=EDGE_LOOP('',(#477,#478,#480,#481));
#483=FACE_OUTER_BOUND('',#482,.F.);
#484=ADVANCED_FACE('',(#483),#476,.F.);
#485=CARTESIAN_POINT('',(6.932277889096E1,6.880450826086E1,5.399815323308E0));
#486=DIRECTION('',(0.E0,0.E0,-1.E0));
#487=DIRECTION('',(1.E0,0.E0,0.E0));
#488=AXIS2_PLACEMENT_3D('',#485,#486,#487);
#489=PLANE('',#488);
#491=ORIENTED_EDGE('',*,*,#490,.F.);
#493=ORIENTED_EDGE('',*,*,#492,.F.);
#495=ORIENTED_EDGE('',*,*,#494,.F.);
#497=ORIENTED_EDGE('',*,*,#496,.F.);
#498=EDGE_LOOP('',(#491,#493,#495,#497));
#499=FACE_OUTER_BOUND('',#498,.F.);
#500=ORIENTED_EDGE('',*,*,#436,.F.);
#501=ORIENTED_EDGE('',*,*,#451,.F.);
#502=ORIENTED_EDGE('',*,*,#467,.F.);
#503=ORIENTED_EDGE('',*,*,#479,.F.);
#504=EDGE_LOOP('',(#500,#501,#502,#503));
#505=FACE_BOUND('',#504,.F.);
#506=ADVANCED_FACE('',(#499,#505),#489,.T.);
#507=CARTESIAN_POINT('',(6.682277889096E1,6.942951110941E1,5.599816234845E0));
#508=DIRECTION('',(-1.E0,0.E0,0.E0));
#509=DIRECTION('',(0.E0,-1.E0,0.E0));
#510=AXIS2_PLACEMENT_3D('',#507,#508,#509);
#511=PLANE('',#510);
#513=ORIENTED_EDGE('',*,*,#512,.T.);
#515=ORIENTED_EDGE('',*,*,#514,.T.);
#517=ORIENTED_EDGE('',*,*,#516,.T.);
#518=ORIENTED_EDGE('',*,*,#490,.T.);
#519=EDGE_LOOP('',(#513,#515,#517,#518));
#520=FACE_OUTER_BOUND('',#519,.F.);
#521=ADVANCED_FACE('',(#520),#511,.T.);
#522=CARTESIAN_POINT('',(6.932277889096E1,7.005451395797E1,5.399815323308E0));
#523=DIRECTION('',(0.E0,1.E0,0.E0));
#524=DIRECTION('',(-1.E0,0.E0,0.E0));
#525=AXIS2_PLACEMENT_3D('',#522,#523,#524);
#526=PLANE('',#525);
#527=ORIENTED_EDGE('',*,*,#512,.F.);
#528=ORIENTED_EDGE('',*,*,#496,.T.);
#530=ORIENTED_EDGE('',*,*,#529,.F.);
#532=ORIENTED_EDGE('',*,*,#531,.F.);
#533=EDGE_LOOP('',(#527,#528,#530,#532));
#534=FACE_OUTER_BOUND('',#533,.F.);
#535=ADVANCED_FACE('',(#534),#526,.T.);
#536=CARTESIAN_POINT('',(6.932277889096E1,6.942951110941E1,5.599816234845E0));
#537=DIRECTION('',(-1.E0,0.E0,0.E0));
#538=DIRECTION('',(0.E0,-1.E0,0.E0));
#539=AXIS2_PLACEMENT_3D('',#536,#537,#538);
#540=PLANE('',#539);
#541=ORIENTED_EDGE('',*,*,#494,.T.);
#543=ORIENTED_EDGE('',*,*,#542,.T.);
#545=ORIENTED_EDGE('',*,*,#544,.T.);
#546=ORIENTED_EDGE('',*,*,#529,.T.);
#547=EDGE_LOOP('',(#541,#543,#545,#546));
#548=FACE_OUTER_BOUND('',#547,.F.);
#549=ADVANCED_FACE('',(#548),#540,.F.);
#550=CARTESIAN_POINT('',(6.932277889096E1,6.880450826086E1,5.799817146381E0));
#551=DIRECTION('',(0.E0,-1.E0,0.E0));
#552=DIRECTION('',(1.E0,0.E0,0.E0));
#553=AXIS2_PLACEMENT_3D('',#550,#551,#552);
#554=PLANE('',#553);
#555=ORIENTED_EDGE('',*,*,#516,.F.);
#557=ORIENTED_EDGE('',*,*,#556,.T.);
#558=ORIENTED_EDGE('',*,*,#542,.F.);
#559=ORIENTED_EDGE('',*,*,#492,.T.);
#560=EDGE_LOOP('',(#555,#557,#558,#559));
#561=FACE_OUTER_BOUND('',#560,.F.);
#562=ADVANCED_FACE('',(#561),#554,.T.);
#563=CARTESIAN_POINT('',(6.932277889096E1,7.005451395797E1,5.799817146381E0));
#564=DIRECTION('',(0.E0,0.E0,1.E0));
#565=DIRECTION('',(-1.E0,0.E0,0.E0));
#566=AXIS2_PLACEMENT_3D('',#563,#564,#565);
#567=PLANE('',#566);
#568=ORIENTED_EDGE('',*,*,#514,.F.);
#569=ORIENTED_EDGE('',*,*,#531,.T.);
#570=ORIENTED_EDGE('',*,*,#544,.F.);
#571=ORIENTED_EDGE('',*,*,#556,.F.);
#572=EDGE_LOOP('',(#568,#569,#570,#571));
#573=FACE_OUTER_BOUND('',#572,.F.);
#574=ADVANCED_FACE('',(#573),#567,.T.);
#575=CLOSED_SHELL('',(#272,#297,#311,#325,#338,#350,#365,#379,#393,#406,#428,
#443,#457,#471,#484,#506,#521,#535,#549,#562,#574));
#576=MANIFOLD_SOLID_BREP('',#575);
#577=(LENGTH_UNIT()NAMED_UNIT(*)SI_UNIT(.MILLI.,.METRE.));
#578=DIMENSIONAL_EXPONENTS(0.E0,0.E0,0.E0,0.E0,0.E0,0.E0,0.E0);
#579=(NAMED_UNIT(*)PLANE_ANGLE_UNIT()SI_UNIT($,.RADIAN.));
#580=PLANE_ANGLE_MEASURE_WITH_UNIT(PLANE_ANGLE_MEASURE(1.745329251994E-2),#579);
#581=(CONVERSION_BASED_UNIT('DEGREE',#580)NAMED_UNIT(#578)PLANE_ANGLE_UNIT());
#582=(NAMED_UNIT(*)SI_UNIT($,.STERADIAN.)SOLID_ANGLE_UNIT());
#583=UNCERTAINTY_MEASURE_WITH_UNIT(LENGTH_MEASURE(4.100152594777E-4),#577,
'closure',
'Maximum model space distance between geometric entities at asserted connectivities');
#584=(GEOMETRIC_REPRESENTATION_CONTEXT(3)GLOBAL_UNCERTAINTY_ASSIGNED_CONTEXT((
#583))GLOBAL_UNIT_ASSIGNED_CONTEXT((#577,#581,#582))REPRESENTATION_CONTEXT
('ID1','3'));
#586=APPLICATION_CONTEXT(
'CONFIGURATION CONTROLLED 3D DESIGNS OF MECHANICAL PARTS AND ASSEMBLIES');
#587=APPLICATION_PROTOCOL_DEFINITION('international standard',
'config_control_design',1994,#586);
#588=DESIGN_CONTEXT('',#586,'design');
#589=MECHANICAL_CONTEXT('',#586,'mechanical');
#590=PRODUCT('266-101-10-00','266-101-10-00','NOT SPECIFIED',(#589));
#591=PRODUCT_DEFINITION_FORMATION_WITH_SPECIFIED_SOURCE('','LAST_VERSION',#590,
.MADE.);
#595=PRODUCT_CATEGORY('part','');
#596=PRODUCT_RELATED_PRODUCT_CATEGORY('detail','',(#590));
#597=PRODUCT_CATEGORY_RELATIONSHIP('','',#595,#596);
#598=SECURITY_CLASSIFICATION_LEVEL('unclassified');
#599=SECURITY_CLASSIFICATION('','',#598);
#600=CC_DESIGN_SECURITY_CLASSIFICATION(#599,(#591));
#601=APPROVAL_STATUS('approved');
#602=APPROVAL(#601,'');
#603=CC_DESIGN_APPROVAL(#602,(#599,#591,#592));
#604=CALENDAR_DATE(112,27,11);
#605=COORDINATED_UNIVERSAL_TIME_OFFSET(1,0,.AHEAD.);
#606=LOCAL_TIME(13,44,1.7E1,#605);
#607=DATE_AND_TIME(#604,#606);
#608=APPROVAL_DATE_TIME(#607,#602);
#609=DATE_TIME_ROLE('creation_date');
#610=CC_DESIGN_DATE_AND_TIME_ASSIGNMENT(#607,#609,(#592));
#611=DATE_TIME_ROLE('classification_date');
#612=CC_DESIGN_DATE_AND_TIME_ASSIGNMENT(#607,#611,(#599));
#613=PERSON('UNSPECIFIED','UNSPECIFIED',$,$,$,$);
#614=ORGANIZATION('UNSPECIFIED','UNSPECIFIED','UNSPECIFIED');
#615=PERSON_AND_ORGANIZATION(#613,#614);
#616=APPROVAL_ROLE('approver');
#617=APPROVAL_PERSON_ORGANIZATION(#615,#602,#616);
#618=PERSON_AND_ORGANIZATION_ROLE('creator');
#619=CC_DESIGN_PERSON_AND_ORGANIZATION_ASSIGNMENT(#615,#618,(#591,#592));
#620=PERSON_AND_ORGANIZATION_ROLE('design_supplier');
#621=CC_DESIGN_PERSON_AND_ORGANIZATION_ASSIGNMENT(#615,#620,(#591));
#622=PERSON_AND_ORGANIZATION_ROLE('classification_officer');
#623=CC_DESIGN_PERSON_AND_ORGANIZATION_ASSIGNMENT(#615,#622,(#599));
#624=PERSON_AND_ORGANIZATION_ROLE('design_owner');
#625=CC_DESIGN_PERSON_AND_ORGANIZATION_ASSIGNMENT(#615,#624,(#590));
#262=EDGE_CURVE('',#195,#196,#4,.T.);
#264=EDGE_CURVE('',#202,#195,#8,.T.);
#266=EDGE_CURVE('',#200,#202,#12,.T.);
#268=EDGE_CURVE('',#196,#200,#16,.T.);
#278=EDGE_CURVE('',#211,#212,#20,.T.);
#280=EDGE_CURVE('',#211,#220,#84,.T.);
#282=EDGE_CURVE('',#218,#220,#24,.T.);
#284=EDGE_CURVE('',#218,#212,#64,.T.);
#289=EDGE_CURVE('',#196,#204,#28,.T.);
#291=EDGE_CURVE('',#204,#198,#48,.T.);
#293=EDGE_CURVE('',#198,#195,#36,.T.);
#305=EDGE_CURVE('',#208,#200,#32,.T.);
#307=EDGE_CURVE('',#208,#204,#52,.T.);
#319=EDGE_CURVE('',#202,#206,#44,.T.);
#321=EDGE_CURVE('',#206,#208,#56,.T.);
#332=EDGE_CURVE('',#206,#198,#40,.T.);
#356=EDGE_CURVE('',#212,#234,#60,.T.);
#358=EDGE_CURVE('',#234,#232,#88,.T.);
#360=EDGE_CURVE('',#232,#211,#76,.T.);
#373=EDGE_CURVE('',#244,#218,#68,.T.);
#375=EDGE_CURVE('',#234,#244,#72,.T.);
#386=EDGE_CURVE('',#220,#246,#80,.T.);
#388=EDGE_CURVE('',#246,#244,#92,.T.);
#400=EDGE_CURVE('',#232,#246,#96,.T.);
#418=EDGE_CURVE('',#250,#252,#108,.T.);
#420=EDGE_CURVE('',#252,#254,#128,.T.);
#422=EDGE_CURVE('',#254,#256,#120,.T.);
#424=EDGE_CURVE('',#256,#250,#112,.T.);
#434=EDGE_CURVE('',#225,#250,#100,.T.);
#436=EDGE_CURVE('',#225,#226,#148,.T.);
#438=EDGE_CURVE('',#252,#226,#104,.T.);
#449=EDGE_CURVE('',#256,#242,#116,.T.);
#451=EDGE_CURVE('',#242,#225,#152,.T.);
#465=EDGE_CURVE('',#240,#254,#124,.T.);
#467=EDGE_CURVE('',#240,#242,#156,.T.);
#479=EDGE_CURVE('',#226,#240,#160,.T.);
#490=EDGE_CURVE('',#215,#216,#132,.T.);
#492=EDGE_CURVE('',#230,#215,#136,.T.);
#494=EDGE_CURVE('',#228,#230,#140,.T.);
#496=EDGE_CURVE('',#216,#228,#144,.T.);
#512=EDGE_CURVE('',#216,#222,#164,.T.);
#514=EDGE_CURVE('',#222,#236,#184,.T.);
#516=EDGE_CURVE('',#236,#215,#176,.T.);
#529=EDGE_CURVE('',#238,#228,#168,.T.);
#531=EDGE_CURVE('',#222,#238,#172,.T.);
#542=EDGE_CURVE('',#230,#248,#180,.T.);
#544=EDGE_CURVE('',#248,#238,#188,.T.);
#556=EDGE_CURVE('',#236,#248,#192,.T.);
#585=ADVANCED_BREP_SHAPE_REPRESENTATION('',(#576),#584);
#592=PRODUCT_DEFINITION('design','',#591,#588);
#593=PRODUCT_DEFINITION_SHAPE('','SHAPE FOR 266-101-10-00.',#592);
#594=SHAPE_DEFINITION_REPRESENTATION(#593,#585);
ENDSEC;
END-ISO-10303-21;
